ISO-10303-21;
HEADER;
FILE_DESCRIPTION (( 'STEP AP203' ),
    '1' );
FILE_NAME ('Q-OZHWP-R2-10-1064-M.STEP',
    '2020-12-22T09:10:50',
    ( '' ),
    ( '' ),
    'SwSTEP 2.0',
    'SolidWorks 2020',
    '' );
FILE_SCHEMA (( 'CONFIG_CONTROL_DESIGN' ));
ENDSEC;

DATA;
#1 = CALENDAR_DATE ( 2020, 22, 12 ) ;
#2 = ORIENTED_EDGE ( 'NONE', *, *, #315, .F. ) ;
#3 = PERSON_AND_ORGANIZATION ( #302, #154 ) ;
#4 = ORIENTED_EDGE ( 'NONE', *, *, #86, .F. ) ;
#5 = LOCAL_TIME ( 17, 10, 50.00000000000000000, #267 ) ;
#6 = SECURITY_CLASSIFICATION_LEVEL ( 'unclassified' ) ;
#7 = ORIENTED_EDGE ( 'NONE', *, *, #169, .F. ) ;
#8 = EDGE_CURVE ( 'NONE', #107, #192, #318, .T. ) ;
#9 = DIRECTION ( 'NONE',  ( -1.000000000000000000, -0.000000000000000000, -0.000000000000000000 ) ) ;
#10 = DIRECTION ( 'NONE',  ( 0.000000000000000000, 0.000000000000000000, 1.000000000000000000 ) ) ;
#11 = DIRECTION ( 'NONE',  ( -1.000000000000000000, -0.000000000000000000, -0.000000000000000000 ) ) ;
#12 = AXIS2_PLACEMENT_3D ( 'NONE', #227, #329, #303 ) ;
#13 = AXIS2_PLACEMENT_3D ( 'NONE', #275, #296, #10 ) ;
#14 = CARTESIAN_POINT ( 'NONE',  ( -3.000000000000000000, 0.000000000000000000, 5.000000000000000000 ) ) ;
#15 = CARTESIAN_POINT ( 'NONE',  ( 1.250000000000000444, 0.000000000000000000, 5.000000000000000000 ) ) ;
#16 = CC_DESIGN_PERSON_AND_ORGANIZATION_ASSIGNMENT ( #313, #128, ( #103 ) ) ;
#17 = DIRECTION ( 'NONE',  ( -1.000000000000000000, 0.000000000000000000, -0.000000000000000000 ) ) ;
#18 = CIRCLE ( 'NONE', #80, 12.69999999999999929 ) ;
#19 = PRODUCT_DEFINITION_SHAPE ( 'NONE', 'NONE',  #103 ) ;
#20 = CARTESIAN_POINT ( 'NONE',  ( 1.250000000000000222, 5.000000000000000000, 0.000000000000000000 ) ) ;
#21 = FACE_OUTER_BOUND ( 'NONE', #134, .T. ) ;
#22 = ORIENTED_EDGE ( 'NONE', *, *, #169, .T. ) ;
#23 = DIRECTION ( 'NONE',  ( -1.000000000000000000, -0.000000000000000000, -0.000000000000000000 ) ) ;
#24 = FACE_OUTER_BOUND ( 'NONE', #235, .T. ) ;
#25 = PLANE ( 'NONE',  #203 ) ;
#26 = DIRECTION ( 'NONE',  ( 0.000000000000000000, 0.000000000000000000, 1.000000000000000000 ) ) ;
#27 = AXIS2_PLACEMENT_3D ( 'NONE', #331, #330, #152 ) ;
#28 = DATE_TIME_ROLE ( 'creation_date' ) ;
#29 = DIRECTION ( 'NONE',  ( -1.000000000000000000, -0.000000000000000000, -0.000000000000000000 ) ) ;
#30 = SHAPE_DEFINITION_REPRESENTATION ( #19, #206 ) ;
#31 = ORIENTED_EDGE ( 'NONE', *, *, #202, .T. ) ;
#32 = VERTEX_POINT ( 'NONE', #219 ) ;
#33 = ORIENTED_EDGE ( 'NONE', *, *, #326, .T. ) ;
#34 = DIRECTION ( 'NONE',  ( -0.000000000000000000, 0.000000000000000000, 1.000000000000000000 ) ) ;
#35 = FACE_OUTER_BOUND ( 'NONE', #259, .T. ) ;
#36 = CARTESIAN_POINT ( 'NONE',  ( -1.250000000000000222, 0.000000000000000000, 0.000000000000000000 ) ) ;
#37 = AXIS2_PLACEMENT_3D ( 'NONE', #201, #253, #156 ) ;
#38 = VECTOR ( 'NONE', #325, 1000.000000000000000 ) ;
#39 = APPLICATION_CONTEXT ( 'configuration controlled 3d designs of mechanical parts and assemblies' ) ;
#40 = CARTESIAN_POINT ( 'NONE',  ( -1.250000000000000222, 0.000000000000000000, 0.000000000000000000 ) ) ;
#41 = DIRECTION ( 'NONE',  ( 0.000000000000000000, 0.000000000000000000, 1.000000000000000000 ) ) ;
#42 = EDGE_CURVE ( 'NONE', #335, #268, #272, .T. ) ;
#43 = CARTESIAN_POINT ( 'NONE',  ( 3.000000000000000000, 1.555301434917138433E-15, -12.69999999999999929 ) ) ;
#44 = CIRCLE ( 'NONE', #27, 5.000000000000000000 ) ;
#45 = MECHANICAL_CONTEXT ( 'NONE', #244, 'mechanical' ) ;
#46 = ORIENTED_EDGE ( 'NONE', *, *, #127, .F. ) ;
#47 = FACE_BOUND ( 'NONE', #255, .T. ) ;
#48 = EDGE_CURVE ( 'NONE', #335, #111, #53, .T. ) ;
#49 = CIRCLE ( 'NONE', #108, 5.000000000000000888 ) ;
#50 = AXIS2_PLACEMENT_3D ( 'NONE', #242, #9, #112 ) ;
#51 = CARTESIAN_POINT ( 'NONE',  ( -3.000000000000000000, 0.000000000000000000, 0.000000000000000000 ) ) ;
#52 = ORIENTED_EDGE ( 'NONE', *, *, #140, .T. ) ;
#53 = LINE ( 'NONE', #102, #310 ) ;
#54 = LOCAL_TIME ( 17, 10, 50.00000000000000000, #81 ) ;
#55 = APPROVAL_DATE_TIME ( #309, #117 ) ;
#56 = ORIENTED_EDGE ( 'NONE', *, *, #286, .T. ) ;
#57 = COORDINATED_UNIVERSAL_TIME_OFFSET ( 8, 0, .AHEAD. ) ;
#58 = ORIENTED_EDGE ( 'NONE', *, *, #121, .T. ) ;
#59 = ORIENTED_EDGE ( 'NONE', *, *, #283, .F. ) ;
#60 = CC_DESIGN_PERSON_AND_ORGANIZATION_ASSIGNMENT ( #182, #110, ( #252 ) ) ;
#61 = AXIS2_PLACEMENT_3D ( 'NONE', #251, #17, #34 ) ;
#62 = DIRECTION ( 'NONE',  ( 0.000000000000000000, 0.000000000000000000, 1.000000000000000000 ) ) ;
#63 = DIRECTION ( 'NONE',  ( -1.000000000000000000, -0.000000000000000000, -0.000000000000000000 ) ) ;
#64 = CYLINDRICAL_SURFACE ( 'NONE', #304, 12.69999999999999929 ) ;
#65 = DIRECTION ( 'NONE',  ( -1.000000000000000000, -0.000000000000000000, -0.000000000000000000 ) ) ;
#66 = AXIS2_PLACEMENT_3D ( 'NONE', #229, #285, #181 ) ;
#67 = CARTESIAN_POINT ( 'NONE',  ( -1.614212418857619014, 0.000000000000000000, 5.000000000000000888 ) ) ;
#68 = DIRECTION ( 'NONE',  ( 0.000000000000000000, 0.000000000000000000, 1.000000000000000000 ) ) ;
#69 =( NAMED_UNIT ( * ) PLANE_ANGLE_UNIT ( ) SI_UNIT ( $, .RADIAN. ) );
#70 = DIRECTION ( 'NONE',  ( 0.000000000000000000, 0.000000000000000000, -1.000000000000000000 ) ) ;
#71 = CC_DESIGN_PERSON_AND_ORGANIZATION_ASSIGNMENT ( #3, #333, ( #250 ) ) ;
#72 = EDGE_LOOP ( 'NONE', ( #139, #271 ) ) ;
#73 = LOCAL_TIME ( 17, 10, 50.00000000000000000, #158 ) ;
#74 = PERSON_AND_ORGANIZATION ( #302, #154 ) ;
#75 = ORIENTED_EDGE ( 'NONE', *, *, #193, .T. ) ;
#76 = ADVANCED_FACE ( 'NONE', ( #312 ), #159, .F. ) ;
#77 = EDGE_LOOP ( 'NONE', ( #4, #163, #133, #56 ) ) ;
#78 = ORIENTED_EDGE ( 'NONE', *, *, #283, .T. ) ;
#79 = MANIFOLD_SOLID_BREP ( 'Ðý×', #155 ) ;
#80 = AXIS2_PLACEMENT_3D ( 'NONE', #113, #220, #274 ) ;
#81 = COORDINATED_UNIVERSAL_TIME_OFFSET ( 8, 0, .AHEAD. ) ;
#82 = VERTEX_POINT ( 'NONE', #222 ) ;
#83 = ORIENTED_EDGE ( 'NONE', *, *, #140, .F. ) ;
#84 = DIRECTION ( 'NONE',  ( 0.000000000000000000, 0.000000000000000000, -1.000000000000000000 ) ) ;
#85 = CARTESIAN_POINT ( 'NONE',  ( -1.614212418857619014, 0.000000000000000000, 0.000000000000000000 ) ) ;
#86 = EDGE_CURVE ( 'NONE', #120, #107, #245, .T. ) ;
#87 = LINE ( 'NONE', #67, #207 ) ;
#88 = DIRECTION ( 'NONE',  ( 1.000000000000000000, 0.000000000000000000, 0.000000000000000000 ) ) ;
#89 = LOCAL_TIME ( 17, 10, 50.00000000000000000, #291 ) ;
#90 = PLANE ( 'NONE',  #161 ) ;
#91 = ADVANCED_FACE ( 'NONE', ( #194 ), #327, .F. ) ;
#92 = UNCERTAINTY_MEASURE_WITH_UNIT (LENGTH_MEASURE( 1.000000000000000082E-05 ), #260, 'distance_accuracy_value', 'NONE');
#93 = CARTESIAN_POINT ( 'NONE',  ( -1.614212418857619014, 0.000000000000000000, 5.000000000000000888 ) ) ;
#94 = ORIENTED_EDGE ( 'NONE', *, *, #223, .F. ) ;
#95 = AXIS2_PLACEMENT_3D ( 'NONE', #51, #301, #68 ) ;
#96 = CARTESIAN_POINT ( 'NONE',  ( -1.614212418857619014, 0.000000000000000000, 0.000000000000000000 ) ) ;
#97 = APPROVAL ( #104, 'UNSPECIFIED' ) ;
#98 = CARTESIAN_POINT ( 'NONE',  ( 3.000000000000000000, 0.000000000000000000, 5.000000000000001776 ) ) ;
#99 = APPROVAL_ROLE ( '' ) ;
#100 = ADVANCED_FACE ( 'NONE', ( #198 ), #90, .F. ) ;
#101 = AXIS2_PLACEMENT_3D ( 'NONE', #264, #29, #41 ) ;
#102 = CARTESIAN_POINT ( 'NONE',  ( -1.614212418857619014, 1.555301434917138433E-15, -12.69999999999999929 ) ) ;
#103 = PRODUCT_DEFINITION ( 'UNKNOWN', '', #246, #167 ) ;
#104 = APPROVAL_STATUS ( 'not_yet_approved' ) ;
#105 = ORIENTED_EDGE ( 'NONE', *, *, #213, .T. ) ;
#106 = APPLICATION_PROTOCOL_DEFINITION ( 'international standard', 'config_control_design', 1994, #39 ) ;
#107 = VERTEX_POINT ( 'NONE', #142 ) ;
#108 = AXIS2_PLACEMENT_3D ( 'NONE', #40, #88, #84 ) ;
#109 = CC_DESIGN_APPROVAL ( #97, ( #103 ) ) ;
#110 = PERSON_AND_ORGANIZATION_ROLE ( 'classification_officer' ) ;
#111 = VERTEX_POINT ( 'NONE', #170 ) ;
#112 = DIRECTION ( 'NONE',  ( 0.000000000000000000, 0.000000000000000000, 1.000000000000000000 ) ) ;
#113 = CARTESIAN_POINT ( 'NONE',  ( -3.000000000000000000, 0.000000000000000000, 0.000000000000000000 ) ) ;
#114 = DIRECTION ( 'NONE',  ( -1.000000000000000000, -0.000000000000000000, -0.000000000000000000 ) ) ;
#115 = CARTESIAN_POINT ( 'NONE',  ( -1.250000000000000222, 5.000000000000000000, 0.000000000000000000 ) ) ;
#116 = CARTESIAN_POINT ( 'NONE',  ( 3.000000000000000000, 0.000000000000000000, 0.000000000000000000 ) ) ;
#117 = APPROVAL ( #132, 'UNSPECIFIED' ) ;
#118 = DIRECTION ( 'NONE',  ( -1.000000000000000000, -0.000000000000000000, -0.000000000000000000 ) ) ;
#119 = PLANE ( 'NONE',  #195 ) ;
#120 = VERTEX_POINT ( 'NONE', #324 ) ;
#121 = EDGE_CURVE ( 'NONE', #111, #238, #131, .T. ) ;
#122 = FACE_OUTER_BOUND ( 'NONE', #72, .T. ) ;
#123 = LOCAL_TIME ( 17, 10, 50.00000000000000000, #57 ) ;
#124 = CC_DESIGN_PERSON_AND_ORGANIZATION_ASSIGNMENT ( #74, #234, ( #246 ) ) ;
#125 = AXIS2_PLACEMENT_3D ( 'NONE', #147, #118, #62 ) ;
#126 = LINE ( 'NONE', #254, #276 ) ;
#127 = EDGE_CURVE ( 'NONE', #240, #192, #87, .T. ) ;
#128 = PERSON_AND_ORGANIZATION_ROLE ( 'creator' ) ;
#129 = VERTEX_POINT ( 'NONE', #14 ) ;
#130 = AXIS2_PLACEMENT_3D ( 'NONE', #36, #321, #173 ) ;
#131 = CIRCLE ( 'NONE', #13, 12.69999999999999929 ) ;
#132 = APPROVAL_STATUS ( 'not_yet_approved' ) ;
#133 = ORIENTED_EDGE ( 'NONE', *, *, #127, .T. ) ;
#134 = EDGE_LOOP ( 'NONE', ( #151, #58 ) ) ;
#135 = CALENDAR_DATE ( 2020, 22, 12 ) ;
#136 = EDGE_LOOP ( 'NONE', ( #317, #75, #320, #22 ) ) ;
#137 = CC_DESIGN_SECURITY_CLASSIFICATION ( #252, ( #246 ) ) ;
#138 = APPROVAL ( #165, 'UNSPECIFIED' ) ;
#139 = ORIENTED_EDGE ( 'NONE', *, *, #286, .F. ) ;
#140 = EDGE_CURVE ( 'NONE', #268, #238, #197, .T. ) ;
#141 = DIRECTION ( 'NONE',  ( -1.000000000000000000, -0.000000000000000000, -0.000000000000000000 ) ) ;
#142 = CARTESIAN_POINT ( 'NONE',  ( 1.250000000000000444, 6.123233995736766282E-16, -5.000000000000000000 ) ) ;
#143 = CC_DESIGN_DATE_AND_TIME_ASSIGNMENT ( #316, #28, ( #103 ) ) ;
#144 = CC_DESIGN_APPROVAL ( #117, ( #246 ) ) ;
#145 = DIRECTION ( 'NONE',  ( 0.000000000000000000, 0.000000000000000000, 1.000000000000000000 ) ) ;
#146 = FACE_BOUND ( 'NONE', #290, .T. ) ;
#147 = CARTESIAN_POINT ( 'NONE',  ( 3.000000000000000000, 0.000000000000000000, 0.000000000000000000 ) ) ;
#148 = CIRCLE ( 'NONE', #230, 5.000000000000000000 ) ;
#149 =( NAMED_UNIT ( * ) SI_UNIT ( $, .STERADIAN. ) SOLID_ANGLE_UNIT ( ) );
#150 = EDGE_CURVE ( 'NONE', #240, #120, #231, .T. ) ;
#151 = ORIENTED_EDGE ( 'NONE', *, *, #223, .T. ) ;
#152 = DIRECTION ( 'NONE',  ( 0.000000000000000000, 0.000000000000000000, 1.000000000000000000 ) ) ;
#153 = CC_DESIGN_PERSON_AND_ORGANIZATION_ASSIGNMENT ( #263, #239, ( #246 ) ) ;
#154 = ORGANIZATION ( 'UNSPECIFIED', 'UNSPECIFIED', '' ) ;
#155 = CLOSED_SHELL ( 'NONE', ( #228, #91, #232, #308, #76, #164, #269, #261, #174, #100 ) ) ;
#156 = DIRECTION ( 'NONE',  ( 0.000000000000000000, 0.000000000000000000, 1.000000000000000000 ) ) ;
#157 = EDGE_LOOP ( 'NONE', ( #190, #214 ) ) ;
#158 = COORDINATED_UNIVERSAL_TIME_OFFSET ( 8, 0, .AHEAD. ) ;
#159 = CYLINDRICAL_SURFACE ( 'NONE', #101, 5.000000000000000888 ) ;
#160 = APPROVAL_PERSON_ORGANIZATION ( #270, #97, #211 ) ;
#161 = AXIS2_PLACEMENT_3D ( 'NONE', #115, #248, #200 ) ;
#162 = DATE_AND_TIME ( #1, #5 ) ;
#163 = ORIENTED_EDGE ( 'NONE', *, *, #150, .F. ) ;
#164 = ADVANCED_FACE ( 'NONE', ( #300 ), #172, .F. ) ;
#165 = APPROVAL_STATUS ( 'not_yet_approved' ) ;
#166 = ORIENTED_EDGE ( 'NONE', *, *, #121, .F. ) ;
#167 = DESIGN_CONTEXT ( 'detailed design', #39, 'design' ) ;
#168 = CIRCLE ( 'NONE', #130, 5.000000000000000888 ) ;
#169 = EDGE_CURVE ( 'NONE', #129, #82, #148, .T. ) ;
#170 = CARTESIAN_POINT ( 'NONE',  ( -3.000000000000000000, 1.555301434917138433E-15, -12.69999999999999929 ) ) ;
#171 = CARTESIAN_POINT ( 'NONE',  ( -1.614212418857619014, 0.000000000000000000, 0.000000000000000000 ) ) ;
#172 = CYLINDRICAL_SURFACE ( 'NONE', #257, 5.000000000000000888 ) ;
#173 = DIRECTION ( 'NONE',  ( 0.000000000000000000, 0.000000000000000000, -1.000000000000000000 ) ) ;
#174 = ADVANCED_FACE ( 'NONE', ( #278, #146 ), #298, .F. ) ;
#175 = CARTESIAN_POINT ( 'NONE',  ( -1.614212418857619014, 0.000000000000000000, 0.000000000000000000 ) ) ;
#176 = DIRECTION ( 'NONE',  ( -1.000000000000000000, -0.000000000000000000, -0.000000000000000000 ) ) ;
#177 = CIRCLE ( 'NONE', #95, 5.000000000000000000 ) ;
#178 = APPLICATION_PROTOCOL_DEFINITION ( 'international standard', 'config_control_design', 1994, #244 ) ;
#179 = AXIS2_PLACEMENT_3D ( 'NONE', #171, #11, #145 ) ;
#180 = DIRECTION ( 'NONE',  ( 0.000000000000000000, 0.000000000000000000, 1.000000000000000000 ) ) ;
#181 = DIRECTION ( 'NONE',  ( 0.000000000000000000, 0.000000000000000000, 1.000000000000000000 ) ) ;
#182 = PERSON_AND_ORGANIZATION ( #302, #154 ) ;
#183 = CARTESIAN_POINT ( 'NONE',  ( 3.000000000000000000, 0.000000000000000000, 0.000000000000000000 ) ) ;
#184 = PERSON_AND_ORGANIZATION ( #302, #154 ) ;
#185 = EDGE_LOOP ( 'NONE', ( #205, #294, #94, #83 ) ) ;
#186 = CALENDAR_DATE ( 2020, 22, 12 ) ;
#187 = ORIENTED_EDGE ( 'NONE', *, *, #86, .T. ) ;
#188 = APPROVAL_PERSON_ORGANIZATION ( #184, #117, #189 ) ;
#189 = APPROVAL_ROLE ( '' ) ;
#190 = ORIENTED_EDGE ( 'NONE', *, *, #202, .F. ) ;
#191 = PERSON_AND_ORGANIZATION ( #302, #154 ) ;
#192 = VERTEX_POINT ( 'NONE', #15 ) ;
#193 = EDGE_CURVE ( 'NONE', #266, #32, #168, .T. ) ;
#194 = FACE_OUTER_BOUND ( 'NONE', #218, .T. ) ;
#195 = AXIS2_PLACEMENT_3D ( 'NONE', #209, #280, #70 ) ;
#196 = DIRECTION ( 'NONE',  ( -1.000000000000000000, -0.000000000000000000, -0.000000000000000000 ) ) ;
#197 = LINE ( 'NONE', #299, #38 ) ;
#198 = FACE_OUTER_BOUND ( 'NONE', #157, .T. ) ;
#199 = AXIS2_PLACEMENT_3D ( 'NONE', #116, #141, #243 ) ;
#200 = DIRECTION ( 'NONE',  ( 0.000000000000000000, 0.000000000000000000, -1.000000000000000000 ) ) ;
#201 = CARTESIAN_POINT ( 'NONE',  ( 3.000000000000000000, 0.000000000000000000, 0.000000000000000000 ) ) ;
#202 = EDGE_CURVE ( 'NONE', #32, #266, #49, .T. ) ;
#203 = AXIS2_PLACEMENT_3D ( 'NONE', #20, #258, #256 ) ;
#204 = CARTESIAN_POINT ( 'NONE',  ( 3.000000000000000000, 0.000000000000000000, 12.69999999999999929 ) ) ;
#205 = ORIENTED_EDGE ( 'NONE', *, *, #322, .T. ) ;
#206 = ADVANCED_BREP_SHAPE_REPRESENTATION ( 'Q-OZHWP-R2-10-1064-M', ( #79, #12 ), #328 ) ;
#207 = VECTOR ( 'NONE', #114, 1000.000000000000000 ) ;
#208 = CYLINDRICAL_SURFACE ( 'NONE', #334, 5.000000000000000888 ) ;
#209 = CARTESIAN_POINT ( 'NONE',  ( -3.000000000000000000, 5.000000000000000000, 0.000000000000000000 ) ) ;
#210 = ORIENTED_EDGE ( 'NONE', *, *, #8, .T. ) ;
#211 = APPROVAL_ROLE ( '' ) ;
#212 = DIRECTION ( 'NONE',  ( -1.000000000000000000, -0.000000000000000000, -0.000000000000000000 ) ) ;
#213 = EDGE_CURVE ( 'NONE', #120, #240, #226, .T. ) ;
#214 = ORIENTED_EDGE ( 'NONE', *, *, #193, .F. ) ;
#215 = APPROVAL_DATE_TIME ( #236, #97 ) ;
#216 = ORIENTED_EDGE ( 'NONE', *, *, #48, .F. ) ;
#217 = DATE_AND_TIME ( #293, #89 ) ;
#218 = EDGE_LOOP ( 'NONE', ( #31, #33, #78, #2 ) ) ;
#219 = CARTESIAN_POINT ( 'NONE',  ( -1.250000000000000222, 0.000000000000000000, 5.000000000000000888 ) ) ;
#220 = DIRECTION ( 'NONE',  ( -1.000000000000000000, -0.000000000000000000, -0.000000000000000000 ) ) ;
#221 = CIRCLE ( 'NONE', #37, 12.69999999999999929 ) ;
#222 = CARTESIAN_POINT ( 'NONE',  ( -3.000000000000000000, 6.123233995736766282E-16, -5.000000000000000000 ) ) ;
#223 = EDGE_CURVE ( 'NONE', #238, #111, #18, .T. ) ;
#224 = CARTESIAN_POINT ( 'NONE',  ( -3.000000000000000000, 0.000000000000000000, 0.000000000000000000 ) ) ;
#225 = CARTESIAN_POINT ( 'NONE',  ( -1.614212418857619014, 6.123233995736767268E-16, -5.000000000000000888 ) ) ;
#226 = CIRCLE ( 'NONE', #199, 5.000000000000001776 ) ;
#227 = CARTESIAN_POINT ( 'NONE',  ( 0.000000000000000000, 0.000000000000000000, 0.000000000000000000 ) ) ;
#228 = ADVANCED_FACE ( 'NONE', ( #323 ), #64, .T. ) ;
#229 = CARTESIAN_POINT ( 'NONE',  ( -1.614212418857619014, 0.000000000000000000, 0.000000000000000000 ) ) ;
#230 = AXIS2_PLACEMENT_3D ( 'NONE', #224, #249, #273 ) ;
#231 = CIRCLE ( 'NONE', #125, 5.000000000000001776 ) ;
#232 = ADVANCED_FACE ( 'NONE', ( #35 ), #208, .F. ) ;
#233 = CARTESIAN_POINT ( 'NONE',  ( -1.250000000000000222, 6.123233995736767268E-16, -5.000000000000000888 ) ) ;
#234 = PERSON_AND_ORGANIZATION_ROLE ( 'design_supplier' ) ;
#235 = EDGE_LOOP ( 'NONE', ( #216, #288, #52, #166 ) ) ;
#236 = DATE_AND_TIME ( #186, #123 ) ;
#237 = EDGE_LOOP ( 'NONE', ( #292, #262 ) ) ;
#238 = VERTEX_POINT ( 'NONE', #282 ) ;
#239 = PERSON_AND_ORGANIZATION_ROLE ( 'creator' ) ;
#240 = VERTEX_POINT ( 'NONE', #98 ) ;
#241 = VECTOR ( 'NONE', #23, 1000.000000000000000 ) ;
#242 = CARTESIAN_POINT ( 'NONE',  ( 1.250000000000000444, 0.000000000000000000, 0.000000000000000000 ) ) ;
#243 = DIRECTION ( 'NONE',  ( 0.000000000000000000, 0.000000000000000000, 1.000000000000000000 ) ) ;
#244 = APPLICATION_CONTEXT ( 'configuration controlled 3d designs of mechanical parts and assemblies' ) ;
#245 = LINE ( 'NONE', #225, #281 ) ;
#246 = PRODUCT_DEFINITION_FORMATION_WITH_SPECIFIED_SOURCE ( 'ANY', '', #250, .NOT_KNOWN. ) ;
#247 = AXIS2_PLACEMENT_3D ( 'NONE', #183, #287, #26 ) ;
#248 = DIRECTION ( 'NONE',  ( 1.000000000000000000, 0.000000000000000000, 0.000000000000000000 ) ) ;
#249 = DIRECTION ( 'NONE',  ( -1.000000000000000000, -0.000000000000000000, -0.000000000000000000 ) ) ;
#250 = PRODUCT ( 'Q-OZHWP-R2-10-1064-M', 'Q-OZHWP-R2-10-1064-M', '', ( #45 ) ) ;
#251 = CARTESIAN_POINT ( 'NONE',  ( 3.000000000000000000, 12.69999999999999929, 0.000000000000000000 ) ) ;
#252 = SECURITY_CLASSIFICATION ( '', '', #6 ) ;
#253 = DIRECTION ( 'NONE',  ( -1.000000000000000000, -0.000000000000000000, -0.000000000000000000 ) ) ;
#254 = CARTESIAN_POINT ( 'NONE',  ( -1.614212418857619014, 6.123233995736767268E-16, -5.000000000000000888 ) ) ;
#255 = EDGE_LOOP ( 'NONE', ( #7, #59 ) ) ;
#256 = DIRECTION ( 'NONE',  ( -0.000000000000000000, 0.000000000000000000, 1.000000000000000000 ) ) ;
#257 = AXIS2_PLACEMENT_3D ( 'NONE', #175, #65, #277 ) ;
#258 = DIRECTION ( 'NONE',  ( -1.000000000000000000, 0.000000000000000000, -0.000000000000000000 ) ) ;
#259 = EDGE_LOOP ( 'NONE', ( #314, #187, #210, #46 ) ) ;
#260 =( LENGTH_UNIT ( ) NAMED_UNIT ( * ) SI_UNIT ( .MILLI., .METRE. ) );
#261 = ADVANCED_FACE ( 'NONE', ( #24 ), #305, .T. ) ;
#262 = ORIENTED_EDGE ( 'NONE', *, *, #42, .F. ) ;
#263 = PERSON_AND_ORGANIZATION ( #302, #154 ) ;
#264 = CARTESIAN_POINT ( 'NONE',  ( -1.614212418857619014, 0.000000000000000000, 0.000000000000000000 ) ) ;
#265 = APPROVAL_DATE_TIME ( #162, #138 ) ;
#266 = VERTEX_POINT ( 'NONE', #233 ) ;
#267 = COORDINATED_UNIVERSAL_TIME_OFFSET ( 8, 0, .AHEAD. ) ;
#268 = VERTEX_POINT ( 'NONE', #204 ) ;
#269 = ADVANCED_FACE ( 'NONE', ( #47, #21 ), #119, .F. ) ;
#270 = PERSON_AND_ORGANIZATION ( #302, #154 ) ;
#271 = ORIENTED_EDGE ( 'NONE', *, *, #8, .F. ) ;
#272 = CIRCLE ( 'NONE', #247, 12.69999999999999929 ) ;
#273 = DIRECTION ( 'NONE',  ( 0.000000000000000000, 0.000000000000000000, 1.000000000000000000 ) ) ;
#274 = DIRECTION ( 'NONE',  ( 0.000000000000000000, 0.000000000000000000, 1.000000000000000000 ) ) ;
#275 = CARTESIAN_POINT ( 'NONE',  ( -3.000000000000000000, 0.000000000000000000, 0.000000000000000000 ) ) ;
#276 = VECTOR ( 'NONE', #176, 1000.000000000000000 ) ;
#277 = DIRECTION ( 'NONE',  ( 0.000000000000000000, 0.000000000000000000, 1.000000000000000000 ) ) ;
#278 = FACE_OUTER_BOUND ( 'NONE', #237, .T. ) ;
#279 = LINE ( 'NONE', #93, #241 ) ;
#280 = DIRECTION ( 'NONE',  ( 1.000000000000000000, 0.000000000000000000, 0.000000000000000000 ) ) ;
#281 = VECTOR ( 'NONE', #63, 1000.000000000000000 ) ;
#282 = CARTESIAN_POINT ( 'NONE',  ( -3.000000000000000000, 0.000000000000000000, 12.69999999999999929 ) ) ;
#283 = EDGE_CURVE ( 'NONE', #82, #129, #177, .T. ) ;
#284 = CC_DESIGN_APPROVAL ( #138, ( #252 ) ) ;
#285 = DIRECTION ( 'NONE',  ( -1.000000000000000000, -0.000000000000000000, -0.000000000000000000 ) ) ;
#286 = EDGE_CURVE ( 'NONE', #192, #107, #44, .T. ) ;
#287 = DIRECTION ( 'NONE',  ( -1.000000000000000000, -0.000000000000000000, -0.000000000000000000 ) ) ;
#288 = ORIENTED_EDGE ( 'NONE', *, *, #42, .T. ) ;
#289 = CALENDAR_DATE ( 2020, 22, 12 ) ;
#290 = EDGE_LOOP ( 'NONE', ( #307, #105 ) ) ;
#291 = COORDINATED_UNIVERSAL_TIME_OFFSET ( 8, 0, .AHEAD. ) ;
#292 = ORIENTED_EDGE ( 'NONE', *, *, #322, .F. ) ;
#293 = CALENDAR_DATE ( 2020, 22, 12 ) ;
#294 = ORIENTED_EDGE ( 'NONE', *, *, #48, .T. ) ;
#295 = CC_DESIGN_DATE_AND_TIME_ASSIGNMENT ( #217, #311, ( #252 ) ) ;
#296 = DIRECTION ( 'NONE',  ( -1.000000000000000000, -0.000000000000000000, -0.000000000000000000 ) ) ;
#297 = DIRECTION ( 'NONE',  ( 0.000000000000000000, 0.000000000000000000, 1.000000000000000000 ) ) ;
#298 = PLANE ( 'NONE',  #61 ) ;
#299 = CARTESIAN_POINT ( 'NONE',  ( -1.614212418857619014, 0.000000000000000000, 12.69999999999999929 ) ) ;
#300 = FACE_OUTER_BOUND ( 'NONE', #136, .T. ) ;
#301 = DIRECTION ( 'NONE',  ( -1.000000000000000000, -0.000000000000000000, -0.000000000000000000 ) ) ;
#302 = PERSON ( 'UNSPECIFIED', 'UNSPECIFIED', 'UNSPECIFIED', ('UNSPECIFIED'), ('UNSPECIFIED'), ('UNSPECIFIED') ) ;
#303 = DIRECTION ( 'NONE',  ( 1.000000000000000000, 0.000000000000000000, 0.000000000000000000 ) ) ;
#304 = AXIS2_PLACEMENT_3D ( 'NONE', #85, #196, #297 ) ;
#305 = CYLINDRICAL_SURFACE ( 'NONE', #66, 12.69999999999999929 ) ;
#306 = DIRECTION ( 'NONE',  ( -1.000000000000000000, -0.000000000000000000, -0.000000000000000000 ) ) ;
#307 = ORIENTED_EDGE ( 'NONE', *, *, #150, .T. ) ;
#308 = ADVANCED_FACE ( 'NONE', ( #122 ), #25, .F. ) ;
#309 = DATE_AND_TIME ( #135, #73 ) ;
#310 = VECTOR ( 'NONE', #212, 1000.000000000000000 ) ;
#311 = DATE_TIME_ROLE ( 'classification_date' ) ;
#312 = FACE_OUTER_BOUND ( 'NONE', #77, .T. ) ;
#313 = PERSON_AND_ORGANIZATION ( #302, #154 ) ;
#314 = ORIENTED_EDGE ( 'NONE', *, *, #213, .F. ) ;
#315 = EDGE_CURVE ( 'NONE', #32, #129, #279, .T. ) ;
#316 = DATE_AND_TIME ( #289, #54 ) ;
#317 = ORIENTED_EDGE ( 'NONE', *, *, #326, .F. ) ;
#318 = CIRCLE ( 'NONE', #50, 5.000000000000000000 ) ;
#319 = PRODUCT_RELATED_PRODUCT_CATEGORY ( 'detail', '', ( #250 ) ) ;
#320 = ORIENTED_EDGE ( 'NONE', *, *, #315, .T. ) ;
#321 = DIRECTION ( 'NONE',  ( 1.000000000000000000, 0.000000000000000000, 0.000000000000000000 ) ) ;
#322 = EDGE_CURVE ( 'NONE', #268, #335, #221, .T. ) ;
#323 = FACE_OUTER_BOUND ( 'NONE', #185, .T. ) ;
#324 = CARTESIAN_POINT ( 'NONE',  ( 3.000000000000000000, 6.123233995736768255E-16, -5.000000000000001776 ) ) ;
#325 = DIRECTION ( 'NONE',  ( -1.000000000000000000, -0.000000000000000000, -0.000000000000000000 ) ) ;
#326 = EDGE_CURVE ( 'NONE', #266, #82, #126, .T. ) ;
#327 = CYLINDRICAL_SURFACE ( 'NONE', #179, 5.000000000000000888 ) ;
#328 =( GEOMETRIC_REPRESENTATION_CONTEXT ( 3 ) GLOBAL_UNCERTAINTY_ASSIGNED_CONTEXT ( ( #92 ) ) GLOBAL_UNIT_ASSIGNED_CONTEXT ( ( #260, #69, #149 ) ) REPRESENTATION_CONTEXT ( 'NONE', 'WORKASPACE' ) );
#329 = DIRECTION ( 'NONE',  ( 0.000000000000000000, 0.000000000000000000, 1.000000000000000000 ) ) ;
#330 = DIRECTION ( 'NONE',  ( -1.000000000000000000, -0.000000000000000000, -0.000000000000000000 ) ) ;
#331 = CARTESIAN_POINT ( 'NONE',  ( 1.250000000000000444, 0.000000000000000000, 0.000000000000000000 ) ) ;
#332 = APPROVAL_PERSON_ORGANIZATION ( #191, #138, #99 ) ;
#333 = PERSON_AND_ORGANIZATION_ROLE ( 'design_owner' ) ;
#334 = AXIS2_PLACEMENT_3D ( 'NONE', #96, #306, #180 ) ;
#335 = VERTEX_POINT ( 'NONE', #43 ) ;
ENDSEC;
END-ISO-10303-21;
